Barclay James Harvest Tabs

Barclay James Harvest Guitar Tabs

Sweet Jesus


#----------------------------------PLEASE NOTE---------------------------------#
#This file is the author's own work and represents their interpretation of the #
#song. You may only use this file for private study, scholarship, or research. #
#------------------------------------------------------------------------------##


Sweet Jesus by Barclay James Harvest
(from the album Time Honoured Ghosts)

A                D            A              E
    Where's the lady and the time I used to know
        D                    A               D
    I think that I have been on the road to long
A              D               A              E
    Scenes of better days are pictured in my head
         D                A             D
    and haunting me those old familiar songs

(chorus)
D F#-            E              D  F#-          E               D
       Oh sweet Jesus hear me cry,      let me see a clearing sky
D F#-         E            D             A
       for tomorrow I may be back home again
   E                 A            D
       so take the shadow from my eyes

A           D                 A               E
    Sunday morning comes I'm feeling kind of down
       D                  A             D
    I can't see back to where it all began
A           D                 A            E
    And I know you'd, help me if you only could
       D                  A            D
    I don't know why or where or who I am

(chorus)

(solo)
---------------------|-----------------------|---------------------|-
-3/7-9-10---9-10-9---|-----7-9-10---10-9-7---|---7-9-7-----9-7---7-|-
-------------------9-|-9-9-----------------7-|-9-------9-------9---|-
---------------------|-----------------------|---------------------|-
---------------------|-----------------------|---------------------|-
---------------------|-----------------------|---------------------|-

------7--------7---------|----|-------|---------------|--------------
-9-10---10-9-----10-9-10-|-10-|-10-10-|-10-10-10---10-|-10-10-10---10
-------------------------|----|-------|---------------|--------------
-------------------------|----|-------|---------------|--------------
-------------------------|----|-------|---------------|--------------
-------------------------|----|-------|---------------|--------------

(chorus)

Jeroen van der Laak PA_ELEC@AZNVX1.AZN.NL


Top of page

Other Tabs

Home Page